A place where criminals and hackers hang out..
 
HomeHome  FAQFAQ  SearchSearch  RegisterRegister  MemberlistMemberlist  UsergroupsUsergroups  Log inLog in  

Share | 
 

 Post guitar tabs here:

Go down 
AuthorMessage
JaVS_v2.5
Admin
avatar

Number of posts : 155
Age : 27
Localisation : vision homes seremban 2
Registration date : 2007-06-26

PostSubject: Post guitar tabs here:   Mon Jul 26, 2010 7:28 pm

post le tab2 gitar kat cni...

ni tab lagu aku main skang: LAMB OF GOD - VIGIL

OH YEAH! Shocked kalu nak post tab guna font size 9 dgn font courier

Tuning- D,A,D,G,B,D
Intro Pre-Verse
Gtr III Gtr I
PM
11x 3x
||7-------8-5---7|----5------------||-||-------------|---------------||-|
||o-6---------6--|6-----5---6-5---o||-||o------------|--------------o||-|
||----7----------|--7-----7-----7--||-||-------------|---------------||-|
||0-----0--------|-----------------||-||-------------|---------------||-|
||o--------------|----------------o||-||o------------|--------------o||-|
||---------------|-----------------||-||0--0--8-3--7-|-2--6-1--5-1-0-||-|


Verse A
Gtr I
PM PM PM PM--| PM
3x
|--------------|---------------||---------------|----------------||--|
|--------------|---------------||o--------------|---------------o||--|
|--------------|---------------||---------------|----------------||--|
|-------8-3--7-|-2--6-1--5-1-0-||--0--0--8-3--7-|-2--6-1--5-1-0--||--|
|-------8-3--7-|-2--6-1--5-1-0-||o-0--0--8-3--7-|-2--6-1--5-1-0-o||--|
|-0--0--8-3--7-|-2--6-1--5-1-0-||--0--0--8-3--7-|-2--6-1--5-1-0--||--|


Pre-Chorus Chorus
Gtr II
PM PM PM PM--|
|--------------|---------------||------------------|-----------------|
|--------------|---------------||o-3-3-3-3-3-3-3-3-|-3-3-3-3-3-3-3-3-|
|--------------|---------------||--2-2-2-2-2-2-2-2-|-2-2-2-2-2-2-2-2-|
|-0--0--8-3--7-|-2--6-1--5-1-0-||--0-0-0-0-0-0-0-0-|-0-0-0-0-0-0-0-0-|
|-0--0--8-3--7-|-2--6-1--5-1-0-||o-1-1-1-1-1-1-1-1-|-1-1-1-1-1-1-1-1-|
|-0--0--8-3--7-|-2--6-1--5-1-0-||------------------|-----------------|


Gtr I
|----------|--------------||-----------------|-----------------|
|----------|-------------o||-3-3-3-3-3-3-3-3-|-3-3-3-3-3-3-3-3-|
|------9---|--------9-----||-2-2-2-2-2-2-2-2-|-2-2-2-2-2-2-2-2-|
|------7---|--------7-----||-0-0-0-0-0-0-0-0-|-0-0-0-0-0-0-0-0-|
|------5---|--------5----o||-----------------|-----------------|
|-0--------|-0--0---------||-3-3-3-3-3-3-3-3-|-3-3-3-3-3-3-3-3-|
|
| Gtr IV
|----------|--------------||-7-------8-5---7-|-----5-----------|
|----------|-------------o||---6---------6---|-6-----5---6-5---|
|----------|--------------||-----7-----------|---7-----7-----7-|
|----------|--------------||-0-----0---------|-----------------|
|----------|-------------o||-----------------|-----------------|
|----------|--------------||-----------------|-----------------|


|-----------------|-----------------|-----------------|-----------------|
|-3-3-3-3-3-3-3-3-|-3-3-3-3-3-3-3-3-|-3-3-3-3-3-3-3-3-|-3-3-3-3-3-3-3-3-|
|-2-2-2-2-2-2-2-2-|-2-2-2-2-2-2-2-2-|-2-2-2-2-2-2-2-2-|-2-2-2-2-2-2-2-2-|
|-0-0-0-0-0-0-0-0-|-0-0-0-0-0-0-0-0-|-0-0-0-0-0-0-0-0-|-0-0-0-0-0-0-0-0-|
|-----------------|-----------------|-----------------|-----------------|
|-2-2-2-2-2-2-2-2-|-2-2-2-2-2-2-2-2-|-1-1-1-1-1-1-1-1-|-1-1-1-1-1-1-1-1-|
|
|-7-------8-5---7-|-----5-----------|-7-------8-5---7-|-----5-----------|
|---6---------6---|-6-----5---6-5---|---6---------6---|-6-----5---6-5---|
|-----7-----------|---7-----7-----7-|-----7-----------|---7-----7-----7-|
|-0-----0---------|-----------------|-0-----0---------|-----------------|
|-----------------|-----------------|-----------------|-----------------|
|-----------------|-----------------|-----------------|-----------------|


Verse B
~ PM
|-----------------|-----------------|---------------|-----------------|
|-3-3-3-3-3-3-3-3-|-3-3-3-3-3-3-3-3-|---------------|-----------------|
|-2-2-2-2-2-2-2-2-|-2-2-2-2-2-2-2-2-|---------------|-----------------|
|-0-0-0-0-0-0-0-0-|-0-0-0-0-0-0-0-0-|---------------|-----------------|
|-----------------|-----------------|---------------|-----------------|
|-1-1-1-1-1-1-1-1-|-1-1-1-1-1-1-1-1-|-0--0--3-5-6---|-0--0-3-5-6-1-0--|
|
|-7-------8-5---7-|-----5-----------|---------------|-----------------|
|---6---------6---|-6-----5---6-5---|---------------|-----------------|
|-----7-----------|---7-----7-----7-|---------------|-----------------|
|-0-----0---------|-----------------|---------------|-----------------|
|-----------------|-----------------|---------------|-----------------|
|-----------------|-----------------|---------------|-----------------|


~ PM------| ~-----------------------| PM
|----------------|----------------|---------------|-------------------|
|----------------|----------------|---------------|-------------------|
|----------------|----------------|---------------|-------------------|
|----------------|----1-1-1-0-0---|---------------|-------------------|
|----------------|----1-1-1-0-0-3-|---------------|-------------------|
|-(0)-0--3-5-6---|-0--1-1-1-0-0-5-|-0--0--3-5-6---|-0--0-3-5-6-1-0----|


~ PM------| PM| PM----------|
|-----------------|----------------|---------------|------------------|
|-----------------|----------------|---------------|------------------|
|-----------------|----------------|---------------|------------------|
|-----------------|----1-1-1-0-0---|-0--0--3-5-6---|----0-3-5-6-1-0---|
|-----------------|----1-1-1-0-0-3-|-0--0--3-5-6---|-0--0-3-5-6-1-0---|
|-(0)--0--3-5-6---|-0--1-1-1-0-0-5-|-0--0--3-5-6---|-0--0-3-5-6-1-0---|


PM---------------------| PM| PM-------------|
|----------------|----------------|---------------|-------------------|
|----------------|----------------|---------------|-------------------|
|----------------|----------------|---------------|-------------------|
|-(0)-0--3-5-6---|-0--1-1-1-0-0---|-0--0--3-5-6---|-0--0-3-5-6-1-0----|
|-(0)-0--3-5-6---|-0--1-1-1-0-0-3-|-0--0--3-5-6---|-0--0-3-5-6-1-0----|
|-(0)-0--3-5-6---|-0--1-1-1-0-0-5-|-0--0--3-5-6---|-0--0-3-5-6-1-0----|


PM| PM--------------------------------|
|----------------|----------------|----------|----------|
|----------------|----------------|----------|----------|
|----------------|----------------|----------|----------|
|-(0)-0--3-5-6---|-0--1-1-1-0-0---|-0--------|-(0)------|
|-(0)-0--3-5-6---|-0--1-1-1-0-0-3-|-0--------|-(0)------|
|-(0)-0--3-5-6---|-0--1-1-1-0-0-5-|-0--------|-(0)------|


Interlude
Q=140
||----------------------------------|----------------------------------|
||o---------------------------------|----------------------------------|
||----------------------------------|----------------------------------|
||----------------------------------|----------------------------------|
||o---------------------------------|----------------------------------|
||--3-0-0-1-0-0-3-0-0-1-0-0-6-5-3-0-|-3-0-0-1-0-0-3-0-6-5-3-5-3-1-0-1--|


|---------------------------------|------------------------------||-|
|---------------------------------|-----------------------------o||-|
|---------------------------------|------------------------------||-|
|---------------------------------|------------------------------||-|
|---------------------------------|-----------------------------o||-|
|-3-0-0-1-0-0-3-0-0-1-0-0-6-5-3-0-|-3-0-0-1-0-0-3-0-6-5-3-0-5-6--||-|


PM-------------------------------------------------------------------|
||----------------------------------|------------------------------------|
||o---------------------------------|------------------------------------|
||----------------------------------|------------------------------------|
||----------------------------------|------------------------------------|
||o---------------------------------|------------------------------------|
||--3-0-0-1-0-0-3-0-0-1-0-0-6-5-3-0-|-3-0-0-1-0-0-3-0-6-5-3-5-3-1-0-1----|


PM-----------------------------------------------------------------|
|---------------------------------|----------------------------------|
|---------------------------------|------------------------------o---|
|---------------------------------|----------------------------------|
|---------------------------------|----------------------------------|
|---------------------------------|------------------------------o---|
|-3-0-0-1-0-0-3-0-0-1-0-0-6-5-3-0-|-3-0-0-1-0-0-3-0-6-5-3-0-5-6------|


PM----| PM----| PM----| PM--------------------------|
||----------------------------|------------------------------|
||o---------------------------|------------------------------|
||----------------------------|------------------------------|
||----------------------------|------------------------------|
||o---------------------------|------------------------------|
||--0-0-0-0--0-0-0-0--0-0-0-0-|--0-0-0-0-0-0-0-0-0-5-0-5-6---|


PM----| PM----| PM-----------------------------------------| PM
|---------------------------|----------------------------------|
|---------------------------|------------------------------o---|
|---------------------------|----------------------------------|
|---------------------------|----------------------------------|
|---------------------------|----------------------3-------o---|
|-0-0-0-0--0-0-0-0--0-0-0-0-|--0-0-0-3-5-6-3-6-5-6---6-5-3-----|


PM----| PM----| PM-----------------------------------------|
||----------------------------|----------------------------------|
||o---------------------------|------------------------------o---|
||----------------------------|----------------------------------|
||--2-2-2-2--3-3-3-3--2-2-2-2-|----------------------------------|
||o-2-2-2-2--3-3-3-3--2-2-2-2-|-6-5-3-------6-5-----8-7------o---|
||--2-2-2-2--3-3-3-3--2-2-2-2-|-------6-5-3-----8-6-----10-8-----|


PM--| PM--| PM-----------------------------------------|
||--------------------------|----------------------------------|
||o-------------------------|------------------------------o---|
||--------------------------|----------------------------------|
||--2-2-2-2-3-3-3-3-2-2-2-2-|----------------------------------|
||o-2-2-2-2-3-3-3-3-2-2-2-2-|-6-5-3-------6-5-----8-7------o---|
||--2-2-2-2-3-3-3-3-2-2-2-2-|-------6-5-3-----8-6-----10-8-----|


Breakdown
PM------------------------------------|
||-----------------------------------------|
||o----------------------------------------|
||-----------------------------------------|
||-----------------------------------------|
||o----------------------------------------|
||--12-0-7-0-12-0-12-0-7-0-12-0-12-0-7-0---|


------------------------------------|
4x
|----------------------------------------||
|---------------------------------------o||
|----------------------------------------||
|----------------------------------------||
|---------------------------------------o||
|-12-0-6-0-13-0-13-0-8-0-13-0-13-0-7-0---||


||---------------------------------------|
||o--------------------------------------|
||---------------------------------------|
||---------------------------------------|
||o--------------------------------------|
||--12-0-7-0-12-0-12-0-7-0-12-0-12-0-7-0-|


|----------------------------------------||
|---------------------------------------o||
|----------------------------------------||
|----------------------------------------||
|---------------------------------------o||
|-12-0-6-0-13-0-13-0-8-0-13-0-13-0-7-0---||


Guitar Solo
||---------------------------------------|
||o--------------------------------------|
||---------------------------------------|
||---------------------------------------|
||o--------------------------------------|
||--12-0-7-0-12-0-12-0-7-0-12-0-12-0-7-0-|
|
| Gtr II
||--12-0-7-0-12-0-12-0-7-0-12-0-12-0-7-0-|
||o--------------------------------------|
||---------------------------------------|
||---------------------------------------|
||o--------------------------------------|
||---------------------------------------|


|----------------------------------------||
|---------------------------------------o||
|----------------------------------------||
|----------------------------------------||
|---------------------------------------o||
|-12-0-6-0-13-0-13-0-8-0-13-0-13-0-7-0---||
|
|-12-0-6-0-13-0-13-0-8-0-13-0-13-0-7-0---||
|---------------------------------------o||
|----------------------------------------||
|----------------------------------------||
|---------------------------------------o||
|----------------------------------------||


Breakdown B
||----------------------------|-------------------------------||
||o---------------------------|------------------------------o||
||----------------------------|-------------------------------||
||--2-2-2-2--3-3-3-3--2-2-2-2-|-------------------------------||
||o-2-2-2-2--3-3-3-3--2-2-2-2-|-6-5-3-------6-5-----8-7------o||
||--2-2-2-2--3-3-3-3--2-2-2-2-|-------6-5-3-----8-6-----10-8--||


||--------------------------|-------------------------------||
||o-------------------------|------------------------------o||
||--------------------------|-------------------------------||
||--2-2-2-2-3-3-3-3-2-2-2-2-|-------------------------------||
||o-2-2-2-2-3-3-3-3-2-2-2-2-|-6-5-3-------6-5-----8-7------o||
||--2-2-2-2-3-3-3-3-2-2-2-2-|-------6-5-3-----8-6-----10-8--||


Outro
Gtrs I, II
PM----| PM----| PM----| PM------------| PM--------|
|---------------------------|-----------------------------|
|---------------------------|-----------------------------|
|---------------------------|-----------------------------|
|---------------------------|-----------------------------|
|---------------------------|-----------------------------|
|-0-0-0-0--0-0-0-0--0-0-0-0-|--0-0-0-0-0-0-0-0--0-0-0-0---|


PM----| PM-----------------------------------------|
|---------------------------|--------------------------|
|---------------------------|--------------------------|
|---------------------------|--------------------------|
|---------------------------|--------------------------|
|---------------------------|--------------------------|
|--0-0-0-0--0-0-0-0-0-0-0-0-|--0-0-0-0--0-0-0-0--0-0---|


|---------------------------|---------------------------|
|---------------------------|---------------------------|
|---------------------------|---------------------------|
|---------------------------|---------------------------|
|---------------------------|---------------------------|
|-0-0-0-0-0-0--0-0-0-0--0-0-|-0-0--0-0-0-0-0-0-0-0--0-0-|


|--------------------------|--------------------------|
|--------------------------|--------------------------|
|--------------------------|--------------------------|
|--------------------------|--------------------------|
|--------------------------|--------------------------|
|-0-0--0-0-0-0--0-0-0-0--0-|-0-0-0--0-0-0-0--0-0-0-0--|


|-------------------------|-------------------------|
|-------------------------|-------------------------|
|-------------------------|-------------------------|
|-------------------------|-------------------------|
|-------------------------|-------------------------|
|-0-0-0-0--0-0-0-0--0-0-0-|-0--0-0-0-0--0-0-0-0--0--|


|--------------------------|---------------------------|
|--------------------------|---------------------------|
|--------------------------|---------------------------|
|--------------------------|---------------------------|
|--------------------------|---------------------------|
|-0-0-0--0-0-0-0--0-0-0-0--|-0-0-0-0--0-0-0-0--0-0-0-0-|


|-----------------*|
|-----------------*|
|-----------------*|
|-----------------*|
|-----------------*|
|--0-0-0-0--------*|

_________________
666 is the number of the BEAST :: dA :: quote; "dreaming of tits are just fucking awesome..."LOL..
Back to top Go down
View user profile http://p33phole.your-board.com
smoke_weat
BORON!!
avatar

Number of posts : 183
Age : 26
Localisation : rising suns
Registration date : 2007-08-16

PostSubject: Re: Post guitar tabs here:   Tue Jul 27, 2010 12:57 am

Master of Puppets
By: Metallica
Tabbed by: Kane Bochatyn (JenoUnion)

Cliff's bassline for Master of Puppets. This one seemed a bit like o_O
because of the minor differences in the heavy riff, but meh.
Questions, comments, or concerns should all go to
CryofthePlanet@hotmail.com OR DarkCloud@aol.com. Thanks, and enjoy!
Link to bass track: https://www.youtube.com/watch?v=hY8zdTO0pvg
=============================================================================
Master of Puppets

Intro A
G|--------------|
D|--------------|
A|-----5-4-3~---|
E|-0------------|

Play x3, end with
G|--------|---------------|-----------------------------------|
D|-Guitar-|---------------|-----------------------------------|
A|--------|-------5-4-3/--|-3--3-3-3-3-3-3-3-3-3-3-3-3-3-3----|
E|--------|-0-0-----------|--------------------------------0--|


Intro B (Play x2)
G|-----------------------|
D|-----------------------|
A|-----------------------|
E|-3-2-0--3-2-0--3-2-0---|


Heavy Riff 1
G|------------------------------------|
D|------------------------------------|
A|-----2-----------------------2-2----|
E|-0-1---0-1-1-0-1-1-0-1-1-0-1--------|

G|------------------------------------|
D|------------------------------------|
A|-----2-----------------------2------|
E|-0-1---0-1-1-0-1-1-0-1-1-0-1--------|

G|------------------------------------|
D|------------------------------------|
A|-----2-----------------------2-2----|
E|-0-1---0-1-1-0-1-1-0-1-1-0-1--------|

G|------------------------------------|
D|------------------------------------|
A|-----2------------------------------|
E|-0-1---0-1-1-0-3-2-0--3-2-0--3-2-0--|

G|------------------------------------|
D|------------------------------------|
A|-----2-----------------------2-2----|
E|-0-1---0-1-1-0-1-1-0-1-1-0-1--------|

G|------------------------------------|
D|------------------------------------|
A|-----2-----------------------2------|
E|-0-1---0-1-1-0-1-1-0-1-1-0-1--------|

G|------------------------------------|
D|------------------------------------|
A|-----2-----------------------2-2----|
E|-0-1---0-1-1-0-1-1-0-1-1-0-1--------|

G|-------------------------------------------------------|
D|-------------------------------------------------------|
A|-----2-------------------------------------------------|
E|-0-1---0-1-1-0-3-2-0--3-2-0--3-2-3-2-0--3-2-0--3-2-0---|


Verse 1 (Play x6)
G|----|--------------------------------|
D|----|--------------------------------|
A|----|--------------------------------|
E|-9/-|-0-0-0-0-0-0-0-0-3-5-0-6-5-3-5--|

G|------------------------------|
D|------------------------------|
A|------------------------------|
E|-0-0-0-0-0-0-0-0-3-5---3-5----|


Pre-Chorus 1
G|--------------------------------|
D|--------------------------------|
A|--------------------------------|
E|-2-2-2-2-2-2-2-2-5-7--8-7-5-7---|

G|--------------------------------|
D|--------------------------------|
A|--------------------------------|
E|-2-2-2-2-2-2-2-2-5-7---5-7------|

G|--------------------------------|
D|--------------------------------|
A|--------------------------------|
E|-2-2-2-2-2-2-2-2-5-7--8-7-5-7---|

G|--------------------------------|
D|--------------------------------|
A|--------------------------------|
E|-2-2-2-2-2-2-2-2-5-7---5-7------|

G|---------------------|
D|---------------------|
A|---------------------|
E|-7-7-7-7-7-7-7-7-----|


Chorus 1A (Play x4)
G|--------------|
D|--------------|
A|--------5--7--|
E|-0--0-0-------|

G|-------------|
D|-------------|
A|-------------|
E|-0-0-0-0-3~--|

G|--------------(------------)|------------------|
D|--------------(--------1---)|-4-2-1---1--------|
A|---------3-2--(----------3-)|-----------3-2----|
E|-3-3-3-3------(3-3-3-3-----)|------------------|

G|------------|
D|------------|
A|------------|
E|-0-0---1-1--|


Chorus 1B
G|----------------------------------------------|
D|----------------------------------------------|
A|----------------------------------------------|
E|-0--0-0--0-0-1-0-0-0-3--3-3--3-3-3--3--3-3-3--|

G|------------------------------------------------------------------|
D|---------------------7-----7-----7-----7--------------------------|
A|-3-3--3-0-2-2-0-0--0---0-0---0-0---0-0---0-5-5------5-----2-------|
E|------------------------------------------------3-3---0-3---------|

G|-----------------------------------------------------|
D|-----------------------------------------------------|
A|-----2h5/7--7------5-----3--3-3--3-3--3-3-3-3--3-3---|
E|-3-3------0-0--0-0---0-0-----------------------------|

G|-----------|
D|-----------|
A|-----------|
E|-0-0--1-1--|

G|----------------------------------------------------------|
D|----------------------------------------------------------|
A|---------------------3--3-3--3-3-3-2-2--------------------|
E|-0--0-0--0-0-1-0-0-0-------------------5-5-3-3--0-0--1-1--|

Heavy Riff 2
G|------------------------------------|
D|------------------------------------|
A|-----2-----------------------2-2----|
E|-0-1---0-1-1-0-1-1-0-1-1-0-1--------|

G|------------------------------------|
D|------------------------------------|
A|-----2-----------------------2------|
E|-0-1---0-1-1-0-1-1-0-1-1-0-1--------|

G|------------------------------------|
D|------------------------------------|
A|-----2-----------------------2-2----|
E|-0-1---0-1-1-0-1-1-0-1-1-0-1--------|

G|-------------------------------------------------------|
D|-------------------------------------------------------|
A|-----2-------------------------------------------------|
E|-0-1---0-1-1-0-3-2-0--3-2-0--3-2-3-2-0--3-2-0--3-2-0---|


Verse 2
G|---------------------------------|
D|---------------------------------|
A|---------------------------------|
E|--0-0-0-0-0-0-0-0-3-5-0-6-5-3-5--|

G|------------------------------|
D|------------------------------|
A|------------------------------|
E|-0-0-0-0-0-0-0-0-3-5---3-5----|

G|---------------------------------|
D|---------------------------------|
A|---------------------------------|
E|--0-0-0-0-0-0-0-0-3-5-0-6-5-3-5--|

G|------------------------------|
D|------------------------------|
A|-----------------5-7---5-7----|
E|-0-0-0-0-0-0-0-0--------------|

G|---------------------------------|
D|---------------------------------|
A|---------------------------------|
E|--0-0-0-0-0-0-0-0-3-5-0-6-5-3-5--|

G|------------------------------|
D|------------------------------|
A|------------------------------|
E|-0-0-0-0-0-0-0-0-3-5---3-5----|

G|---------------------------------|
D|---------------------------------|
A|---------------------------------|
E|--0-0-0-0-0-0-0-0-3-5-0-6-5-3-5--|

G|------------------------------|
D|------------------------------|
A|------------------------------|
E|-0-0-0-0-0-0-0-0-3-5---3-5----|

Pre-Chorus 2
G|--------------------------------|
D|--------------------------------|
A|--------------------------------|
E|-2-2-2-2-2-2-2-2-5-7--8-7-5-7---|

G|--------------------------------|
D|--------------------------------|
A|--------------------------------|
E|-2-2-2-2-2-2-2-2-5-7---5-7------|

G|--------------------------------|
D|--------------------------------|
A|--------------------------------|
E|-2-2-2-2-2-2-2-2-5-7--8-7-5-7---|

G|--------------------------------|
D|--------------------------------|
A|--------------------------------|
E|-2-2-2-2-2-2-2-2-5-7---5-7------|

G|---------------------|
D|---------------------|
A|---------------------|
E|-7-7-7-7-7-7-7-7-----|

Chorus 2A (Play x4)
G|--------------|
D|--------------|
A|--------5--7--|
E|-0--0-0-------|

G|-------------|
D|-------------|
A|-------------|
E|-0-0-0-0-3~--|

G|--------------(------------)|------------------|
D|--------------(--------1---)|-4-2-1---1--------|
A|---------3-2--(----------3-)|-----------3-2----|
E|-3-3-3-3------(3-3-3-3-----)|------------------|

G|------------|
D|------------|
A|------------|
E|-0-0---1-1--|


Chorus 2B
G|----------------------------------------------|
D|----------------------------------------------|
A|----------------------------------------------|
E|-0--0-0--0-0-1-0-0-0-3--3-3--3-3-3--3--3-3-3--|

G|------------------------------------------------------------------|
D|---------------------7-----7-----7-----7--------------------------|
A|-3-3--3-0-2-2-0-0--0---0-0---0-0---0-0---0-5-5------5-----2-------|
E|------------------------------------------------3-3---0-3---------|

G|-----------------------------------------------------|
D|-----------------------------------------------------|
A|-----2h5/7--7------5-----3--3-3--3-3--3-3-3-3--3-3---|
E|-3-3------0-0--0-0---0-0-----------------------------|

G|-----------|
D|-----------|
A|-----------|
E|-0-0--1-1--|

G|----------------------------------------------------------|
D|----------------------------------------------------------|
A|---------------------3--3-3--3-3-3-2-2--------------------|
E|-0--0-0--0-0-1-0-0-0-------------------5-5-3-3--0-0--1-1--|


Interlude (*All Notes in interlude are staccato unless marked otherwise)
G|--------------------------------|
D|--------------------------------|
A|-7--5~---3~---0~----2~----6~----|
E|--------------------------------|

G|--------------------------------------------------------------|
D|--------------------------------------------------------------|
A|-7----7-5~--555-5---5-3-3~--333-3-0-3-0~--0-2-220-2--66660-6--| (Play x2)
E|--0-0-------------5-------------------------------------------|

G|-----------------------------------------------------------|
D|-----------------------------------------------------------|
A|-7-----7-5~--555-5/7-5-3~--333-0-3-0~--0-22220-2--6666006--| (Play x2)
E|---0-0-----------------------------------------------------|


G|--------------------------------------------------------------|
D|--------------------------------------------------------------|
A|-7----7-5~--555-5---5-3-3~--333-3-0-3-0~--0-2-220-2--66660-6--| (Play x2)
E|--0-0-------------5-------------------------------------------|


Bridge A (Play x2)
G|-------------------------------------------|
D|-------------------------------------------|
A|-------------------------------------------|
E|-0-0-0-0-2-2-2-2-2-2-2-2-3-3-3-3-3-3-3-3---|

G|--------------------------|
D|--------------------------|
A|-----------------6-6-6-6--|
E|-5-5-5-5-7-7-7-7----------|


Bridge B (Crescendo)
G|----------------------------------------------|
D|----------------------------------------------|
A|-------7-----7-----7-----7--7--7--7--7--7--7--|
E|-0--0--0--0--0--0--0--0--0--0--0--0--0--0--0--|


Bridge C (Play x7)
G|-----------------------------------|
D|-----------------------------------|
A|---------------33---------------3--|
E|-2-2-3-2-2-2-3----2-2-3-2-2-2-3----|


Solo Intro
G|------------------------------------------------|
D|------------------------------------------------|
A|------------------------------------------------|
E|-3-3--3--3-3-3--3--3-2-2--2--222--2-2-0--2-2-0--|

Solo Backing A
G|---------------------------------|
D|---------------------------------|
A|---------------------------------|
E|--0-0-0-0-0-0-0-0-3-5-0-6-5-3-5--|

G|------------------------------|
D|------------------------------|
A|------------------------------|
E|-0-0-0-0-0-0-0-0-3-5---3-5----|

G|---------------------------------|
D|---------------------------------|
A|---------------------------------|
E|--0-0-0-0-0-0-0-0-3-5-0-6-5-3-5--|

G|------------------------------|
D|------------------------------|
A|-----------------5-7---5-7----|
E|-0-0-0-0-0-0-0-0--------------|

G|---------------------------------|
D|---------------------------------|
A|---------------------------------|
E|--0-0-0-0-0-0-0-0-3-5-0-6-5-3-5--|

G|------------------------------|
D|------------------------------|
A|------------------------------|
E|-0-0-0-0-0-0-0-0-3-5---3-5----|

G|---------------------------------|
D|---------------------------------|
A|---------------------------------|
E|--0-0-0-0-0-0-0-0-3-5-0-6-5-3-5--|

G|------------------------------|
D|------------------------------|
A|------------------------------|
E|-0-0-0-0-0-0-0-0-3-5---3-5----|


Solo Backing B
G|--------------------------------|
D|--------------------------------|
A|--------------------------------|
E|-2-2-2-2-2-2-2-2-5-7--8-7-5-7---|

G|--------------------------------|
D|--------------------------------|
A|--------------------------------|
E|-2-2-2-2-2-2-2-2-5-7---5-7------|

G|--------------------------------|
D|--------------------------------|
A|--------------------------------|
E|-2-2-2-2-2-2-2-2-5-7--8-7-5-7---|

G|--------------------------------|
D|--------------------------------|
A|--------------------------------|
E|-2-2-2-2-2-2-2-2-5-7---5-7------|

G|---------------------|
D|---------------------|
A|---------------------|
E|-7-7-7-7-7-7-7-7-----|


Post-Solo Bridge A (Play x2)
G|----------------------------------|
D|----------------------------------|
A|-----------------------------2-2--|
E|-0-0-1-0-0-1-0-0-1-0-0-1-0-0------|


G|--------------------------------|
D|--------------------------------|
A|-----------------------------2--|
E|-0-0-1-0-0-1-0-0-1-0-0-1-0-0----|


Post-Solo Bridge B (Play x4)
G|--------------------------------------------|
D|---------------------------------2-4-5------|
A|---------------------------2-3-5-------3~---|
E|-0-0-0-0-0-0-0-0-000-2-3-5------------------|

G|--------------------|
D|--------------------|
A|-333-2-3-5-3-2---2--|
E|---------------5----|


End Post-Solo Bridge
G|----------------------|
D|----------------------|
A|-333-2-3-5-3-2---2----|
E|---------------5---0~-|

G|---------------------|
D|---------------------|
A|-333-2-3-5-3-2---2---|
E|---------------5---0-|

Enter Final Verse
G|-----------------------|
D|-----------------------|
A|-----------------------|
E|-3-2-0--3-2-0--3-2-0---|

G|--------------------------------------|
D|--------------------------------------|
A|--------------------------------------|
E|-3-2-0--3-2-0--3-2-3-2-0--3-2-0--3-2--|


Verse 3
G|---------------------------------|
D|---------------------------------|
A|---------------------------------|
E|--0-0-0-0-0-0-0-0-3-5-0-6-5-3-5--|

G|------------------------------|
D|------------------------------|
A|------------------------------|
E|-0-0-0-0-0-0-0-0-3-5---3-5----|

G|---------------------------------|
D|---------------------------------|
A|---------------------------------|
E|--0-0-0-0-0-0-0-0-3-5-0-6-5-3-5--|

G|------------------------------|
D|------------------------------|
A|-----------------5-7---5-7----|
E|-0-0-0-0-0-0-0-0--------------|

G|---------------------------------|
D|---------------------------------|
A|---------------------------------|
E|--0-0-0-0-0-0-0-0-3-5-0-6-5-3-5--|

G|------------------------------|
D|------------------------------|
A|------------------------------|
E|-0-0-0-0-0-0-0-0-3-5---3-5----|

G|---------------------------------|
D|---------------------------------|
A|---------------------------------|
E|--0-0-0-0-0-0-0-0-3-5-0-6-5-3-5--|

G|------------------------------|
D|------------------------------|
A|------------------------------|
E|-0-0-0-0-0-0-0-0-3-5---3-5----|

Pre-Chorus 3
G|--------------------------------|
D|--------------------------------|
A|--------------------------------|
E|-2-2-2-2-2-2-2-2-5-7--8-7-5-7---|

G|--------------------------------|
D|--------------------------------|
A|--------------------------------|
E|-2-2-2-2-2-2-2-2-5-7---5-7------|

G|--------------------------------|
D|--------------------------------|
A|--------------------------------|
E|-2-2-2-2-2-2-2-2-5-7--8-7-5-7---|

G|--------------------------------|
D|--------------------------------|
A|--------------------------------|
E|-2-2-2-2-2-2-2-2-5-7---5-7------|

G|---------------------|
D|---------------------|
A|---------------------|
E|-7-7-7-7-7-7-7-7-----|

Chorus 3A (Play x4)
G|--------------|
D|--------------|
A|--------5--7--|
E|-0--0-0-------|

G|-------------|
D|-------------|
A|-------------|
E|-0-0-0-0-3~--|

G|--------------(------------)|------------------|
D|--------------(--------1---)|-4-2-1---1--------|
A|---------3-2--(----------3-)|-----------3-2----|
E|-3-3-3-3------(3-3-3-3-----)|------------------|

G|------------|
D|------------|
A|------------|
E|-0-0---1-1--|


Chorus 3B
G|----------------------------------------------|
D|----------------------------------------------|
A|----------------------------------------------|
E|-0--0-0--0-0-1-0-0-0-3--3-3--3-3-3--3--3-3-3--|

G|------------------------------------------------------------------|
D|---------------------7-----7-----7-----7--------------------------|
A|-3-3--3-0-2-2-0-0--0---0-0---0-0---0-0---0-5-5------5-----2-------|
E|------------------------------------------------3-3---0-3---------|

G|-----------------------------------------------------|
D|-----------------------------------------------------|
A|-----2h5/7--7------5-----3--3-3--3-3--3-3-3-3--3-3---|
E|-3-3------0-0--0-0---0-0-----------------------------|

G|-----------|
D|-----------|
A|-----------|
E|-0-0--1-1--|

G|----------------------------------------------------------|
D|----------------------------------------------------------|
A|---------------------3--3-3--3-3-3-2-2--------------------|
E|-0--0-0--0-0-1-0-0-0-------------------5-5-3-3--0-0--1-1--|


Outro (Play x4)
G|--------------------------------|
D|--------------------------------|
A|--------------------------------|
E|-0-0-0-0-0-0-0-0-3-5-0-6-5-3-5--|

G|------------------------------|
D|------------------------------|
A|------------------------------|
E|-0-0-0-0-0-0-0-0-3-5---3-5----|


Ending
G|-----------------------|
D|-----------------------|
A|-----------------------|
E|-3-2-0--3-2-0--3-2-0---|


And that's that! Key is below, some new things, but not much. This was a fun
song to tab out, but the chorus was pretty difficult at first. Well, hope
you bassists like this. Slowly going through and setting straight all of
Cliff's basslines that have been tabbed wrong because he plays it way
weird. =D

Key
====
(#...#...#...) - omit phrase on final playthrough (i.e. in choruses,
don't play the end bit for the 4th playthrough of the riff)
#h# - Hammer-on/Pull-off to/from indicated fret (i.e. 2h5)
#/# - Slide to indicated fret (i.e. 5/7)
#~ - Let indicated fret ring (i.e. 2~)
Back to top Go down
View user profile
smoke_weat
BORON!!
avatar

Number of posts : 183
Age : 26
Localisation : rising suns
Registration date : 2007-08-16

PostSubject: Re: Post guitar tabs here:   Tue Jul 27, 2010 12:57 am

Iron Man - Bass
Black Sabbath - Paranoid


||-----------------------------------------------------------------||
||-----------------------------------------------------------------||
||----7b(10)-----7b(10)-----7b(10)----7b(10)-----------------------||
||-----------------------------------------------------------------||
This lick goes right w/
||-------------------------------------------||----------------------
||-------------------------------------------||----------------------
||--2---5--5/7-7---10-9-10-9-10---5-5/7-7/\--||--------5b(6)---------
||-------------------------------------------||--7--7--------7-6-5-5-
the drum roll No body helps him Now he has his...
------------------||-------9---7--------------------------||---------
------7-6-7-6-7---||-----9--------9-7-5----------4--5-4---||---------
---7------------7-||-7------------------5------5--------5-||---------
-5----------------||-------------------------7------------||--7-7--7-
Pre solo solo
------------------||------------------------------||-----------------
------------7-8-9-||--11-9------------------------||-----------------
-5-7--7-8-9-------||--------11-10-9-7-------------||-----------------
------------------||------------------7-7-7-9-9-9-||--9-9-9-9-9-7h9-9

---------------------------------------------------------------------
---------------------------------9-11-11-11-11-11-9h11-11-11-11-11-9h
----------------------7---7-9-11-------------------------------------
-9-9-9-7h9-9-9-9-97h9---9--------------------------------------------

----12-11-9--------------------------------------------9-------------
-11---------12-11-9-11-11-11-11-119h11-11-11-11-119h11---11-9-7------
----------------------------------------------------------------11-9-
---------------------------------------------------------------------

--------------------------------------------------------------||-----
------------------------------9h11--9h11--9h11---9h11-9h11-11-||-11-9
-7------------------------------------------------------------||-----
---7h9--7h9--7h9---7h9-7h9-9----------------------------------||-----
outro (time to use the steve harris hand)
-----------------------||--------------------------------------------
-----------------------||--------------------------------------------
-11-10-9-7-------------||-7-7-7-7-7-7-7-7-7-7-7-7-7-7-7-7-7-7-7-7-7-7
-----------7-7-7-9-9-9-||--------------------------------------------
Do this while guitar does E bend. When guitar does riff do this
---------------------------------|-----------------------------------
---------------------------------|-----------------------------------
-7-7-7-7-7-7-7-7-7-7-7-7-7-7-7-7-|7-5-7-7-7-7-7-7-7-5-3-5-5-5-5-5-5-5
---------------------------------|-----------------------------------
Geezer does different endings for this riff
------------------|---------------------|h=hammer-on
------------------|---------------------|/-slide up
-3-2-3-3-3-3-3-3-3|-2-2-2-2-2-2-2-2-2-2-|\slide down
------------------|---------------------|b=bend ( )=note bend to
here are some of the licks Geezer does
|-----------------|---------------------|-------------------||
|-----------------|---------------------|-------------------||
|-2-3-2---2-3-5---|-2-3-2-------3-5-----|-2-3-2-3-2-3-5-----||
|-------3---------|--------3-5----------|-------------------||

Back to top Go down
View user profile
smoke_weat
BORON!!
avatar

Number of posts : 183
Age : 26
Localisation : rising suns
Registration date : 2007-08-16

PostSubject: Re: Post guitar tabs here:   Tue Jul 27, 2010 12:58 am

Megadeth- "Dave Mustaine, David Ellefson, Marty Friedman, and Nick Menza"
Angry Again- "Hidden Treasures"-1995
Tab By- ANDREW GREEN "Megadeth Kicks Ass"



Intro:
I--------------------------6-7-----I
I------------------7-8---------8-7-I
I-5-6-----8-9----------9-8---------I x 1
I-----7-6-----10-9-----------------I

Part 1:
I--------------------------------------------------------I
I-----2-----2-------------------2-----2------------------I
I---2-----3---3-2-------------2-----3---3-2--------------I x 1
I-0-----0---------0-0000000-0-----0---------0-0000-5-4-3-I

Part 2:
I--------------------------------------------------------I
I-----2-----2--------------------------------------------I
I---2-----3---3-2----------------------------5-----3-----I x 1
I-0-----0---------0-0000-5-4-3---5-4-3---5-4---0-0---3-0-I

Part 3:
I------------------------------------------------------I
I---2-----2-------------------2-----2------------------I
I-2-----3---3-2-------------2-----3---3-2--------------I
I-----0---------0-0000000-0-----0---------0-0000-5-4-3-I

I---------------------------------------------------I
I---2-----2-------------------2-----2---------------I
I-2-----3---3-2-------------2-----3---3-5-----3-----I
I-----0---------0-0000000-0-----0---------0-0---3-0-I

I------------------------------------------------------I
I---2-----2-------------------2-----2------------------I
I-2-----3---3-2-------------2-----3---3-2--------------I
I-----0---------0-0000000-0-----0---------0-0000-5-4-3-I

I--------------------------------------------------------I
I-----2-----2--------------------------------------------I
I---2-----3---3-2----------------------------5-----3-----I
I-0-----0---------0-0000-5-4-3---5-4-3---5-4---0-0---3-0-I

Intro:
I--------------------------6-7-----I
I------------------7-8---------8-7-I
I-5-6-----8-9----------9-8---------I
I-----7-6-----10-9-----------------I

Part 4:
I-----------------------------------------------------I
I---------5-------------------------5-----------------I
I-7---5/7---5/7-----3-5-5---7---5/7---5-3-----5-------I
I---0-----------0-0-------0---0-----------0-0---0-0-0-I

I-----------------------------------------------------------------I
I---------5-------------------------5-----------------------------I
I-7---5/7---5/7-----3-5-5---7---5/7---5-3----2----0----2----0-----I
I---0-----------0-0-------0---0-----------00---00---00---00---3-0-I

Part 5:
I------------------------------------------------------I
I---2-----2-------------------2-----2------------------I
I-2-----3---3-2-------------2-----3---3-2--------------I
I-----0---------0-0000000-0-----0---------0-0000-5-4-3-I



I--------------------------------------------------------I
I-----2-----2--------------------------------------------I
I---2-----3---3-2----------------------------5-----3-----I
I-0-----0---------0-0000-5-4-3---5-4-3---5-4---0-0---3-0-I

Intro:
I--------------------------6-7-----I
I------------------7-8---------8-7-I
I-5-6-----8-9----------9-8---------I
I-----7-6-----10-9-----------------I

Part 4:
I-----------------------------------------------------I
I---------5-------------------------5-----------------I
I-7---5/7---5/7-----3-5-5---7---5/7---5-3-----5-------I
I---0-----------0-0-------0---0-----------0-0---0-0-0-I

I-----------------------------------------------------------------I
I---------5-------------------------5-----------------------------I
I-7---5/7---5/7-----3-5-5---7---5/7---5-3----2----0----2----0-----I
I---0-----------0-0-------0---0-----------00---00---00---00---3-0-I

Part 6:
I---------------------------------------------------------------I
I---------------------------------------------------------------I
I---------------------------------------------------------------I
I-0-0-0---0-0-0---1-1-1---1-1-1---2-2-2---2-2-2---3-3-3---3-3-3-I

I-----------------------------------------------------------I
I-----------------------------------------------------------I
I-----------------------------------------------5-----3-----I
I-4-4-4---4-4-4---5-5-5---5-5-5---6-6-6---6-6-6---0-0---3-0-I

Part 7:
I-------------------------I
I-------------------------I
I-7-----------5-----3-----I x 4
I---0-0-0-0-0---0-0---3-0-I

Part 8:
I-----------------------------------------------------------------I
I-----2-----2-----0-1-----------------2-----2-----0-1-----3-4-----I
I---2-----3---3-2-----2-1-----------2-----3---3-2-----2-1-----5-4-I
I-0-----0-----------------2-3-2-1-0-----2-------------------------I

Part 9:
I-----------------------------------------I
I----1-2------------------1-2-------------I
I--------4-3------------------4-3---------I
I-1~---------3-2-1-2---1~---------3-2-0-1-I

Part 3:
I------------------------------------------------------I
I---2-----2-------------------2-----2------------------I
I-2-----3---3-2-------------2-----3---3-2--------------I
I-----0---------0-0000000-0-----0---------0-0000-5-4-3-I

I---------------------------------------------------I
I---2-----2-------------------2-----2---------------I
I-2-----3---3-2-------------2-----3---3-5-----3-----I
I-----0---------0-0000000-0-----0---------0-0---3-0-I

I------------------------------------------------------I
I---2-----2-------------------2-----2------------------I
I-2-----3---3-2-------------2-----3---3-2--------------I
I-----0---------0-0000000-0-----0---------0-0000-5-4-3-I

I--------------------------------------------------------I
I-----2-----2--------------------------------------------I
I---2-----3---3-2----------------------------5-----3-----I
I-0-----0---------0-0000-5-4-3---5-4-3---5-4---0-0---3-0-I


Intro:
I--------------------------6-7-----I
I------------------7-8---------8-7-I
I-5-6-----8-9----------9-8---------I
I-----7-6-----10-9-----------------I

Part 10:
I-----------------------------------------------------I
I---------5-------------------------5-----------------I
I-7---5/7---5/7-----3-5-5---7---5/7---5-3-----5-------I
I---0-----------0-0-------0---0-----------0-0---0-0-0-I

I-------------------------------------------------------------I
I---------5-------------------------5-------------------------I
I-7---5/7---5/7-----3-5-5---7---5/7---5-3----2----0----2----0-I
I---0-----------0-0-------0---0-----------00---00---00---00---I

I-------------------------I
I-------------------------I
I----2----0----2----0-----I
I-00---00---00---00---3-0-I

I-----------------------------------------------------I
I---------5-------------------------5-----------------I
I-7---5/7---5/7-----3-5-5---7---5/7---5-3-----5-------I
I---0-----------0-0-------0---0-----------0-0---0-0-0-I

I-------------------------------------------------------------I
I---------5-------------------------5-------------------------I
I-7---5/7---5/7-----3-5-5---7---5/7---5-3----2----0----2----0-I
I---0-----------0-0-------0---0-----------00---00---00---00---I

Part 11:
I------------------------------------I
I------------------7-8---------------I
I-5-6-----8-9----------9-8-----------I
I-----7-6-----10-9---------3-2-0-1-0-I
Back to top Go down
View user profile
smoke_weat
BORON!!
avatar

Number of posts : 183
Age : 26
Localisation : rising suns
Registration date : 2007-08-16

PostSubject: Re: Post guitar tabs here:   Tue Jul 27, 2010 12:58 am

ni bass tabs yg paling senang...haha albino

Nirvana
Smells Like Teen Spirit
Author: Ricardo Fonseca


Riff1

G|--------------------------
D|--------------------------
A|------1-1-0------4-4-0---
E|-1-11-------4-44----------

Riff2
G|------------------------------------
D|------------------------------------
A|--------1-1-1-0----------4-4-4-3----
E|1-1-1-1---------4-4-4-0-------------

Riff3
G|--------------------------
D|--------------------------
A|--------------------------
E|1-1-00-2--1-1-00-44-------

Order:
Riff1 (4x)
Riff2 (10x)
Riff1 (6x)
Riff3 (2x)
Riff2 (10x)
Riff1 (6x)
Riff3 (2x)
Riff2 (10x)
Riff1 (8x)
Riff2 (10x)
Riff1 (10x)
Back to top Go down
View user profile
smoke_weat
BORON!!
avatar

Number of posts : 183
Age : 26
Localisation : rising suns
Registration date : 2007-08-16

PostSubject: Re: Post guitar tabs here:   Tue Jul 27, 2010 12:59 am

ni antara lagu2 yg aku duk main skang nih...haha Smile
Back to top Go down
View user profile
JaVS_v2.5
Admin
avatar

Number of posts : 155
Age : 27
Localisation : vision homes seremban 2
Registration date : 2007-06-26

PostSubject: Re: Post guitar tabs here:   Tue Jul 27, 2010 1:06 pm

asshole ko dgr megadeath eh...haha thrash!!
cuba ko main slayer pya lagu lak hahahha

_________________
666 is the number of the BEAST :: dA :: quote; "dreaming of tits are just fucking awesome..."LOL..
Back to top Go down
View user profile http://p33phole.your-board.com
smoke_weat
BORON!!
avatar

Number of posts : 183
Age : 26
Localisation : rising suns
Registration date : 2007-08-16

PostSubject: Re: Post guitar tabs here:   Tue Jul 27, 2010 7:03 pm

haha....ye ar asshole..ok2 nanti aku try plak main lagu2 slash rendeer
Back to top Go down
View user profile
JaVS_v2.5
Admin
avatar

Number of posts : 155
Age : 27
Localisation : vision homes seremban 2
Registration date : 2007-06-26

PostSubject: Re: Post guitar tabs here:   Wed Aug 04, 2010 10:33 pm

main lagu lamb of god boron!!
nnti jammin senang...man reti drum dia..aku gitar no hal

_________________
666 is the number of the BEAST :: dA :: quote; "dreaming of tits are just fucking awesome..."LOL..
Back to top Go down
View user profile http://p33phole.your-board.com
smoke_weat
BORON!!
avatar

Number of posts : 183
Age : 26
Localisation : rising suns
Registration date : 2007-08-16

PostSubject: Re: Post guitar tabs here:   Thu Aug 05, 2010 3:21 am

haha...nanti aku try la asshole!!! wakaka bounce
Back to top Go down
View user profile
Sponsored content




PostSubject: Re: Post guitar tabs here:   

Back to top Go down
 
Post guitar tabs here:
Back to top 
Page 1 of 1
 Similar topics
-
» Alter Bridge PRS Guitar Sweepstakes *usa only*
» [ANSWERED] Programs did not appear under "Programs and Features" after winreducer post installation
» [ANSWERED] Integrating win7 x64 post sp1 updates + ie11 problem
» Post Installation OOBE
» [phpbb3] Like system that shows who liked a post

Permissions in this forum:You cannot reply to topics in this forum
P33PHOLE HACKING NETWORK :: Guitarz!-
Jump to: